terça-feira, 13 de junho de 2006

Vira-vira

Mamonas Assassinas
(intro) ( E B7 )

(intro solo)
E |12-11-9-7-7-9-11-12--------|
B |---------------------------| (2x)
G |---------------------------|

    "raiosss"
E |-----------|----------|
B |-----------|----------|
G |-----------|----------| (2x)
D |--9-8-6-4-4|-4-6-8-9-9|
A |--7-6-4-2-2|-2-4-6-7-7|
E |---------- |----------|

         E5                 B5
Fui convidado pra uma tal suruba
                                 E5
Não pude ir, maria foi no meu lugar
                                    B5
Depois de uma semana ela voltou pra casa
                                   E5
Toda arregaçada, não podia nem sentar
                             B5
Quando vi aquilo fiquei assustado
                                    E5
Maria, chorando, começou a me explicar
     E5                 A5
Aí então eu fiquei aliviado
                B5                           E5
E dei graças a deus porque ela foi no meu lugar

(refrão)
             B5
Roda, roda e vira
                E5
Solta a roda e vem
                     B5
Me passaram a mão na bunda
                     E5
E ainda não comi ninguém
             B5
Roda, roda e vira
                E5
Solta a roda e vem
                A5
Neste raio de suruba
                        B5
Já me passaram a mão na bunda
                       E5
E ainda não comi ninguém

E |-----------|----------|
B |-----------|----------|
G |-----------|----------| (2x)
D |--9-8-6-4-4|-4-6-8-9-9|
A |--7-6-4-2-2|-2-4-6-7-7|
E |---------- |----------|

      E5                     B5
Ô manoel, olha cá como eu estou
                                  E5
Tu não imaginas como eu estou sofrendo
                             B5
Uma teta minha um negão arrancou
                            E5
E a outra que sobrou está doendo
                            B5
Ô maria, vê se larga de frescura
                                   E5
Que eu te levo no hospital pela manhã
     E5                   A5
Tu ficaste tão bonita monoteta
                B5                     E5
Mais vale um na mão do que dois no sutiã

(refrão)

E |----------|           |---------|
B |----------|           |---------|
G |----------| bate o pé |---------| "arróta"
D |--9-8-6-4-|           |-4-6-8-9-|
A |--7-6-4-2-|           |-2-4-6-7-|
E |----------|           |---------|

E |---------------|----------|
B |---------------|----------|
G |---------------|----------|
D |--9-9-9-8-8-8-4|-4-6-8-9-9|
A |--7-7-7-6-6-6-2|-2-4-6-7-7|
E |---------------| ---------|

       E5                   B5
Oh! maria essa suruba me excita
                        E5
Arrebita, arrebita, arrebita
                              B5
Então vá fazer amor com uma cabrita
                        E5
Arrebita, arrebita, arrebita
                                B5
Mas maria isto é bom que te exercita
                         E5
Bate o pé, arrebita, arrebita
    E5                  A5
Manoel tua cabeça tem titica
             B5                     E5
Larga de putaria e vá cuidar da padaria

(refrão)

E |-----------|----------|
B |-----------|----------|
G |-----------|----------| (2x)
D |--9-8-6-4-4|-4-6-8-9-9|
A |--7-6-4-2-2|-2-4-6-7-7|
E |---------- |----------|

Raios todo mundo comigo hoououou a maria se deu mal vamo lá... 
ai como dói

Nenhum comentário: