sexta-feira, 24 de novembro de 2006

Lugar nenhum

Titãs
Intro.:
   E(Riff)8x     A  G A 4x    E(Riff)4x  
e--------------------------------------
B--------------------------------------
G--------------------------------------
D--------------77-5-7------------------
A-224455-2245--77-5-7------224455-2245-
E-000000-0000--55-3-5------000000-0000-
   G    G7  4x    E(Riff)8x
e-7777-7777-----------------
B-8888-6666-----------------
G-7777-7777-----------------
D---------------------------
A---------------224455-2245-
E---------------000000-0000-
E7
Não sou brasileiro
Não sou estrangeiro
Não sou brasileiro
Não sou estrangeiro
A G A
Eu não sou de nenhum lugar
G A
Sou de lugar nenhum
G A G A E7
Sou de lugar nenhum
G
Não sou de São Paulo
F
Não sou japonês
G
Eu não sou carioca
G
Não sou português
G
Eu não sou de Brasília
F G
Não sou do Brasil
F E7
Nenhuma pátria me pariu
Solo:(D A B)
e---------10----------------------
B-12--10--12^---------------------
G-14^-12^------4-77-44------------
D----------------------4-6-4------2x
A----------------------------6-2~-
E---------------------------------
  (D A B)
e7777777777777777777777777---------------------
B7777777777777777777777777---------------------
G----------------------------------------------
D----------------------------------------------4x
A----------------------------------------------
E----------------------------------------------



  "Eu não tô nem aí, Eu não tô nem aqui"
E(Riff) 8x
Não sou.........
Não sou.....
Final: (E Eb D C#) (C B A D)  (E Eb D C#) (C B A E)
e------77775555----3333557----77775555----3333550-
B------55553333----1111335----55553333----1111335-
G-------------------------------------------------
D-------------------------------------------------
A-------------------------------------------------
E-------------------------------------------------
Postar um comentário