quinta-feira, 30 de novembro de 2006

Senhora e senhor

Titãs
Intr: (G  G7+)
e-3-5-2-0------
b--------2-5---
g--------------
d--------------
a--------------
E--------------
(G  G7+)
Veja só o que restou
Do nosso caso de amor
C C4 C
Uma casa com varanda
G G7+
E um jardim que não dá flor
(G G7+)
Uma geladeira cheia de comidas sem sabor
Um programa interminável diante do televisor
C C4 C ( G C9 G/B D )
Uma lâmpada queimada no lustre do corredor...
G C G/B D G
O pensamento distante para evitar a dor
C G/B D C
O olhar tão desbotado que já não distingue cor
G/B
Velhas rugas escondidas
C/Bb (Riff 1)
Debaixo do cobertor
Am7 D
Saudades, indiferença
G A/G
Decadência e mau humor
G A/G
Tratamento respeitável
C D4 G
De senhora e senhor
(repete desde a introdução até o fim)
Riff 1:

E-----------------
B-----------------
G-----------0-2-4-
D-------0-2-------
A-0-2-3-----------
E-----------------
Postar um comentário