sexta-feira, 1 de dezembro de 2006

Tudo o que você quiser

Titãs
E-----5-5----------10-10---9-9-----------
B-----------5-5--------------------------
G----------------------------------------
D----------------------------------------
A----------------------------------------
E----------------------------------------
E-----5-5----------10-10---12-12---------
B-----------5-5--------------------------
G----------------------------------------
D----------------------------------------
A----------------------------------------
E----------------------------------------
Tom: A
Intro: (A E D Db)
A    E     D   Db
Pode escolher
A E D Db
Pode escolher por mim
Pode resolver
Pode resolver por mim
A        E
O que fazer
D Db A
O que falar e quando ouvir
A E
O que dizer
D Db A
Com quem andar e aonde ir
O que fazer
O que falar e quando ouvir
O que dizer
D Db D E
Com quem andar e aonde ir
A        Db       D
Tudo que você quiser
Tudo que você disser
A Db D A
Tudo que você quiser
A Db D
Tudo que você quiser
Tudo que você disser
A Db D E
Tudo que você quiser
A    E      D    Db
Pode responder
A E D Db
Pode responder por mim
Pode decidir
Pode decidir por mim
A        E
O que fazer
D Db A
O que falar e quando ouvir
A E
O que dizer
D Db A
Com quem andar e aonde ir
O que fazer
O que falar e quando ouvir
O que dizer
D Db D E
Com quem andar e aonde ir
A        Db       D
Tudo que você quiser
Tudo que você disser
A Db D A
Tudo que você quiser
A Db D
Tudo que você quiser
Tudo que você disser
A Db D E
Tudo que você quiser
(E Ab A B Db D) - 1ª Guitarra
(E7 D Db B Db A) - 2ª Guitarra
(A Ab A B Db D) - Final 2ª Guitarra
         Repete Intro: (A E D Db)
A        E
O que fazer
D Db A
O que falar e quando ouvir
A E
O que dizer
D Db A
Com quem andar e aonde ir
O que fazer
O que falar e quando ouvir
O que dizer
D Db D E
Com quem andar e aonde ir
A        Db       D
Tudo que você quiser
Tudo que você disser
A Db D A
Tudo que você quiser
A Db D
Tudo que você quiser
Tudo que você disser
A Db D E A
Tudo que você quiser
Postar um comentário