quarta-feira, 24 de maio de 2006

Coimbra

Coimbra (fado) - Raul Ferrão e José Galhardo
Tom: A  

Am           Am7+
  Coimbra do choupal
   Am7          Am6
  ainda és capital
       F7+/A      Am
  do amor em Portugal
   E7
  ainda
  Coimbra onde uma vez
  com lágrimas se fez
  a história desta Inês
      Am    E7
  tão linda
    Am            Am7+
  Coimbra das canções
       Am7            Am6
  tão meigas que nos põe
      F7+/A      Am
  os nossos corações
    E7
  a luz
  Coimbra dos doutores
  prá nós os teus cantores
                        Am  E7
  a fonte dos amores és tú
    A
  Coimbra é uma lição
      E7
  de sonho e tradição
     Bm             E7
  o lente é uma canção
       A     D    E7
  e a lua a faculdade
     A
  o livro é uma mulher
      E7
  só passa quem souber
       Bm           E7
  e aprende-se a dizer
      A
  saudade.

Solo:

    Am                                 E7
e|-0-5-5-5-4-0-3-3-3-3-2-0-1-1-1-1-0---------------------
B|-----------------------------------1-0-3-1-3-----------
G|-----------------------------------------------1-1-1-1-
D|---------------------------------------------2---------


                              A       E7
e|---------------------------------|
B|-------------------------1-0-0---|
G|---------------------1-2-------2-|
D|-3-3-2-2-2-2-0-3-2-4-------------|


  A
Coimbra é uma lição...

Nenhum comentário: