segunda-feira, 12 de junho de 2006

Cabeça de bagre II

Mamonas Assassinas
Intro: (E7) (E7 E/B E/G)
Intro: (E7)
E7
Loucura, insensatez, estado inevitável
embalagem de iogurte inviolável
Fome, miséria e incompreensão
O Brasil é "Treta" Campeão
A7                          G7         
Quando eu repeti a 5ª série e, 
              A7                       G7
      tirava 'e', 'd', de vez enquando 'c'
A7                              G7 
Mais de dez minutos se passaram e: 
       A7                     (E7) 
       cê, cê, cererê, cê, cê
E7
A polícia é justiça de um mundo cão
Mês de agosto sempre tem vacinação
Na política, o futuro de um país
Cala a boca, tira o dedo do meu nariz
A7                          G7        
Quando eu repeti a 5ª série e, 
            A7                        G7
    tirava 'e', 'd', de vez enquando 'c'
A7                               G7 
Mais de dez mil anos se passaram e: 
       A7   
      cê, cê, cererê, cê, cê
A7                            (A4)
Quando eu repeti a 5ª série e
e|------------------------9------------------------------
B|------------10-----12-------12---10---11----8/9----8/9-
G|--9------9---------------------------------------------
D|-----11------------------------------------------------
A|-------------------------------------------------------
E|-------------------------------------------------------
A7                                 (A4)
Mais de dez mil anos se passaram e
E|--------9-12-9-----
B|-----10------------
G|---9---------------
D|-------------------     2X
A|-------------------
E|-------------------

F#7
Mamonas nha... nha... nha...} 5X
      F7
Assassinas ( hehehehe ! )
A7                          G7
Quando eu repeti a 5ª série e,       
             A7                      G7
     tirava 'e', 'd', de vez enquando C
A7                               G7
Mais de dez mil anos se passaram e: 
     A7   
    cê, cê, cererê, cê, cê
Final: (Bb A) 3X

Nenhum comentário: