domingo, 13 de janeiro de 2008

Janaína

Biquini Cavadão

Tom: A  

(intro)


e|-7/9-7----------------------------------
B|--------10--7---7-10-7------------------
G|--------------9---------9--6-----6--9---
D|------------------------------9---------
A|----------------------------------------
E|----------------------------------------



E|---7/9--7-------------7/9--7------------
B|------------10--7--------------10--7----
G|----------------------------------------
D|----------------------------------------
A|----------------------------------------
E|----------------------------------------



E|---7/9--7-------------7/9--7------------
B|------------10--7--------------10--6----
G|----------------------------------------
D|----------------------------------------
A|----------------------------------------
E|----------------------------------------


A
Janaina acorda todo dia às quatro e meia
  A7M
E já na hora de ir pra cama, Janaina pensa
Bm7
Que o dia não passou
Dm6
Que nada aconteceu

A
Janaina é passageira
                      A7M
Passa as horas do seu dia em trens lotados
                        Bm7
Filas de supermercados, bancos e repartições
Dm6
Que repartem sua vida

        F#m7
Mas ela diz

Que apesar de tudo ela tem sonhos
        Bm7
Mas ela diz
                         D7M
Que um dia a gente há de ser feliz
    F#m7
Ela diz

Que apesar de tudo ela tem sonhos
    Bm7
Ela diz
                         D7M
Que um dia a gente há de ser feliz
              A
Se Deus quiser...

(intro) A  A7M  Bm7  Dm6

A
Janaina é beleza de gestos, abraços,
A7M
Mãos, dedos, anéis e labios
Bm7
Dentes e sorriso solto
Dm6
Que escapam do seu rosto

A
Janaina é só lembrança de amores guardados
A7M
Hoje é apenas mais uma pessoa
                Bm7
Que tem medo do futuro- que aconteceu ? -
Dm6
Se alimenta do passado

        F#m7
Mas ela diz

Que apesar de tudo ela tem sonhos
        Bm7
Mas ela diz
              D7M
Que um dia a gente há de ser feliz
F#m7
Diz

Que apesar de tudo ela tem sonhos
    Bm7
Ela diz
                         D7M
Que um dia a gente há de ser feliz
            A  A7M            A
Se Deus quiser... Se Deus quiser

   D#m7(b5)
Já não imagina
    D7M
Quantos anos tem
    C#m7
Já na iminência
  C°
De outro aniversário
D7M
Janaina acorda todo dia às quatro e meia
C#m7
Já na hora de ir pra cama, Janaina pensa
Bm7
Que o dia não passou
Dm6 E4/7(b9)
Que nada aconteceu
Postar um comentário