domingo, 13 de janeiro de 2008

Múmias

Biquini Cavadão

Múmias - Alvaro, Bruno, Miguel, Sheik, Coelho

Em G C D
INTRO Em G C D9 (4x)
     Em     G       C         D
E----0------3-------0---------2----------
B----0------3-------1---------3----------
G----0------0-------0---------2----------
D----2------0-------2---------0----------
A----2------2-------3---------0----------
E----0------3-------0---------0----------
(Em G C D)
Bem aventurados sejam aqueles que amam essa desordem
Nós viemos a reboque, este mundo é um grande choque
Mas, não somos desse mundo
De cidades em torrentes
De pessoas em correntes
BASE: Em A (2x)
RIFF (2x)
E-------15------10-----5-----0--
B---12------12------8-----3-----
G-------------------------------
D-------------------------------
A-------------------------------
E-------------------------------
(Em G C D)
Errar não é humano
Depende de quem erraRefrão
Esperamos pela vida  (4x)
Vivendo só de guerra
INTRO (1x)
(Em G C D)
Viemos preparados pra almoçar soldados
Chegamos atrasados, sumiram com a cidade antes de nós
Mesmo assim, basta esquecê-la no outro dia
Transformando em lataria,
tudo que estiver ao nosso alcance
RIFF (2x)


REFRÃO (4x)
(Em G C D)
"Chega de marra, chega de farra, chega de guerra
Quem nunca falha, fala, erra
Só que te joga a primeira pedra
Aqui na terra, bicho te pega fica violento
Meu raciocínio transformado em racionamento
Só que tá lento é minha forma de reprodução
Corta câmera, corta luz que eu continuo em ação
Aproveitando nossa liberdade de expressão
Renato Russo, o Eu Suave e o Biquini Cavadão"
                                           
Bem aventurados sejam os senhores do progresso RIFF     
Esses senhores do regresso                    (3x)
REFRÃO (4x)
(Em G C D)
Vivendo só de guerra
Vivendo só de guerra
Viemos espalhar discórdia
(Esperamos pela vida, vivendo só de guerra)
Conquistar muitas vitórias
(Esperamos pela vida, vivendo só de guerra)
Conquistar muitas derrotas
(Esperamos pela vida, vivendo só de guerra)
(Esperamos pela vida, vivendo só de guerra)
Postar um comentário