domingo, 12 de novembro de 2006

Longo caminho

Paralamas do Sucesso
(Riff)1

G C Bm5+ (Riff)3
Foi um longo caminho até aqui
G C Bm5+
Um dia longo agora chove
G C Bm5+ (Riff)3
Como uma canção sem fim
G C Bm5+
Como uma voz ao telefone
C Bm5+ (Riff)4 C Bm5+ C Bm5+
Eu vivo tão só... tão só
G                    C     Bm5+
À dias de prazer e dias ruins
G C Bm5+ (Riff)3
Já não sou mais quem era antes
G C Bm5+
Ha algo de você ainda em mim
G C Bm5+
Como uma música distânte
C Bm5+ (Riff)4 C Bm5+ C Bm5+
Eu vivo tão só... tão só
F                       C
Quantas canções vieram antes
Cm G
Quantas à por vir
A7 Am
Quantos amores errantes
Am G D Dm C
Por onde eu me perdi... â hâ...
              C  G  Am  D
E a noite caí
C G Am D
E o tempo vai
C G Am D
E a vida tra... az você aqui
(Riff)1
G                    C     Bm5+
À dias de prazer e dias ruins
G C Bm5+ (Riff)3
Já não sou mais quem era antes
G C Bm5+
Ha algo de você ainda em mim
G C Bm5+
Como uma música distânte
G C Bm5+ (Riff)4 C Bm5+ C Bm5+
Eu vivo tão só... tão só
F                       C
Quantas canções vieram antes
Cm G
Quantas à por vir
A7 Am
Quantos amores errantes
Am G D Dm C
Por onde eu me perdi... â hâ...
             C  G  Am  D
E a noite caí
C G Am D
E o tempo vai
C G Am D
E a vida tra... az você aqui
(Riff)1
G                       C    Bm5+ (Riff)3 
Foi um longo caminho até aqui[G C Bm5+ (Riff)3]
G C Bm5+ G C Bm5+
Um dia longo agora chove
C Bm5+ (Riff)4 C Bm5+ C Bm5+
Parece não ter fim
C Bm5+ (Riff)4 C Bm5+ C Bm5+
Eu vivo tão só... tão só...
(Riff)2
(Riff)1
e------------------------------------------
B--3-------3-3-3-3------3-3----------------
G--2b2.5r2-0-2-0-2b2.5--2-0----------------
D---------------------------2-0------------
A-------------------------------0-2-5------
E-------------------------------------0-3--
(Riff)2
e------------------------------------------
B--3-------3-3-3-3------3-3----------------
G--2b2.5r2-0-2-0-2b2.5--2-0----------------
D---------------------------2-0------------
A-------------------------------0-2-0------
E---------------------------------------3--
(Riff)3                   (Riff)4
e---------------- e----------------
B---------------- B----------------
G---------------- G----------------
D------0--------- D------0---------
A--0h2----------- A--0h2----2p0----
E--------3------- E-------------3--
Afinação da guitarra: E
Postar um comentário