quinta-feira, 13 de julho de 2006

Vento no litoral

Legião Urbana
(intro) Am Em Am Em F C F C

 Am                Em
E|-----0----------|------7----5---3-|
B|----------3---1-|---------5---5---|
G|--2-----2---2---|---9-------------|
D|----------------|-----------------|
A|----------------|-----------------|
E|----------------|-----------------|
     F                 C
E|-----------------|----------------|
B|-----6----5----3-|----5----3----1-|
G|-----------------|----------------|
D|--7----5----3----|-5----3----2----|
A|-----------------|----------------|
E|-----------------|----------------|

     Am                       Em
 De tarde quero descansar, chegar até a praia
          Am
 Ver se o vento ainda está forte
           Em
 E vai ser bom subir nas pedras
         C
 Sei que faço isso pra esquecer
    Bb
 Eu deixo a onda me acertar
     Am                       F  
 E o vento vai levando tudo embora.
G Am F G C F

                 Em
 Agora está tão longe
                    Dm
 Vê, a linha do horizonte me distrai:
            G                          F
 Dos nossos planos é que tenho mais saudade,
                  Em                   Dm
 Quando olhávamos juntos na mesma direção.

       Bb
 Aonde está você agora
          Am
 Além de aqui, dentro de mim?

(intro) F G Am F G Am

 C             Cm
 Agimos certo sem quere
 G/B
 Foi só o tempo que errou
 Bb
 Vai ser dificil sem você
    A4              A            Dm
 Porque você está comigo o tempo todo.

 Quando vejo o mar
 C
 Existe algo que diz:
      G/B      Am            G           F
 - A vida continua e se entregar é uma bobagem

 Em          A7        Dm
 Já que você não está aqui,
              Dm/C    Bb        G
 O que posso fazer é cuidar de mim.
       C
 Quero ser feliz ao menos.
 F             Bb           G
 Lembra que o plano era ficarmos bem?

   Am  Em                Am   G C                
 - Ei, olha só o que eu achei:   cavalos-marinhos
F E4 E

(intro 2x) Am Em

 Em        C
 Sei que faço isso pra esquecer
    Bb
 Eu deixo a onda me acertar
     Am                       F   G C
 E o vento vai levando tudo embora
Postar um comentário