quinta-feira, 20 de julho de 2006

Just Tell Her Jim Said Hello

Elvis Presley
Tom: C
Intro:
C
e-------------------------------------------
B-------------------------------------------
G-----------4-------------------4-----------
D--5--5-7-------7-5----5--5-7-------7-5-----
A-------------------------------------------
E-------------------------------------------
(Riff 1)
e---------------------
B---------------------
G-----------4---------
D--5--5-7-------7-5---
A---------------------
E---------------------

C                        G       (Riff 1)
She's sitting right over there
C       (Riff 1)
I'd know that face anywhere
F           G
I'd run up and embrace her
E
But I’m ashamed to face her
F              G        C       (Riff 1)
Just tell her Jim said hello

C                       G       (Riff 1)
I'd like to pour out my heart
C        (Riff 1)
But I don't know where to start
F         G
I'd like to tell her
E
What I’m really feeling but
F              G        C       (Riff 1)
Just tell her Jim said hello

Dm              Bb       A
Just tell her Jim said hello
Dm              Bb             E       G
Just tell her Jim and she'll know

C                          G       (Riff 1)
Don't tell her I’m feeling blue
C      (Riff 1)
That's just between me and you
F              G
Don't say I’m thinking of her
E
Don't tell her I still love her
F              G        C       (Riff 1)
Just tell her Jim said hello

F              G        C        (Riff 1)
Just tell her Jim said hello
F              G        C        (Riff 1)   
Just tell her Jim said hello               \_Fade out
F              G        C        (Riff 1)   /
Just tell her Jim said hello              /
Postar um comentário