quinta-feira, 20 de julho de 2006

Witchcraft

Elvis Presley
Tom: A
Intro:
E            D           A               E
e-----------------------------------------------------
B-----------------------------------------------------
G-----------------------------------------------------
D------------9-----------7----------------------------
A---7---11-------5---9---------------7----------------
E----------------------------5---9-------5---0-0-0-0-0

Riff 1:
A
e---------------------------------------------
B---------------------------------------------
G---------------------------------------------
D---------------------------------------------
A-----------7-----------7-----------7---------
E---5---9-------5---9-------5---9-------5-----
Don't do that ...             ... it now
D                       A
e---------------------------------------------
B---------------------------------------------
G---------------------------------------------
D-----------7-----------7---------------------
A---5---9-------5---9---------------7---------
E---------------------------5---9-------5-----
E            D           A
e---------------------------------------------
B---------------------------------------------
G---------------------------------------------
D------------9-----------7--------------------
A---7---11-------5---9---------------7--------
E----------------------------5---9-------5----

    (Riff 1)
Don't do that, please stop it
Please stop it now
You know I can't take it
Please stop it now
My head is spinning a spell on me now
A
My head is spinning around and around
D                   A
My head is spinning around and around
E
Your witchcraft has got me
D                   A
Keep going down and down

(Riff 1)
Let me forget her, don't mention her name
You know it brings back that old burning flame
It hurts to know that she don't feel the same

A
My head is spinning around and around
D                   A
My head is spinning around and around
E
Your witchcraft has got me
D                   A
Keep going down and down

Sax solo....

(Riff 1)
I can't go on since she left me alone
My one desire is to cry, now to cry
She might come back one day by and by and by

A
My head is spinning around and around
D                   A
My head is spinning around and around
E
Your witchcraft has got me
D                   A
Keep going down and down

A
My head is spinning around and around
D                   A
My head is spinning around and around
E
Your witchcraft has got me
D                   A
Keep going down and down    (Fade out......)

Nenhum comentário: