sábado, 16 de setembro de 2006

De volta pro futuro

Roupa Nova
Introduçao: C F G F C E
Solo da introduçao:

C F
E--------------10--8--7--8--10--
B--5--5--6--8-------------------
G-------------------------------
D-------------------------------
A-------------------------------
E-------------------------------
             G         F
E--12--10h12p10--8--7--8--8--10--
B--------------------------------
G--------------------------------
D--------------------------------
A--------------------------------
E--------------------------------
   C                  E
E--12--8--7--10--12--16~~~~--
B----------------------------
G----------------------------
D----------------------------
A----------------------------
E----------------------------
Am Am7+      Am7     Am6
Sou o mesmo que te amou
F7+ Am
Não me diga que esqueceu
Am Am7+ Am7 Am6
Sei que tudo já mudou
F7+ Am
Muita coisa se perdeu
C G F
Houve um tempo que um beijo nos calava a voz
G# C
E o silêncio é eu te amo
G Am
Vem de volta pro futuro que ainda há pra nós
Em F G# G
Ah o amor só dói pra quem não volta atrás
C G Dm F
(Amor é tudo que eu tenho pra dar
C Am G
depois é só pedir mais) 2x
Am Am7+ Am7 Am6
Sou o mesmo que te quis
F7+ Am
Lembra da primeira vez
Am Am7+ Am7 Am6
Qual dos dois foi mais feliz
F7+ Am
Quantos beijos eu te dei
C G F
Na saudade eu te conheço como alguém real
G# C
Dando volta nos meus sonhos
G Am
No futuro sentimento que inventou nós dois
Em F G# G
Ah sempre vem depois pra quem quer recomeçar
C G Dm F
(Amor é tudo que eu tenho pra dar
C Am G
depois é só pedir mais) 2x
Solo:
   C               F
E--------------10--8--7--8--10--
B--5--5--6--8-------------------
G-------------------------------
D-------------------------------
A-------------------------------
E-------------------------------
             G         F  
E--12--10h12p10--8--7--8--7--8--
B-------------------------------
G-------------------------------
D-------------------------------
A-------------------------------
E-------------------------------
   G      F      Am      C
E--10--7--8--10--12--13--15--
B----------------------------
G----------------------------
D----------------------------
A----------------------------
E----------------------------
C                        G         F
Houve um tempo que um beijo nos calava a voz
G# C
E o silêncio é eu te amo
G Am
Vem de volta pro futuro que ainda há pra nós
Em F G# G
Ah o amor só dói pra quem não volta atrás
C G Dm F
(Amor é tudo que eu tenho pra dar
C Am G
depois é só pedir mais) 2x
D A Em G
(Amor é tudo que eu tenho pra dar
D Bm A
depois é só pedir mais) 4x
Postar um comentário